De Música Ligera Soda Stereo – Accordi per chitarra

De Música Ligera – Soda Stereo Testo e accordi per chitarra. Accordichitarra.me è un prodotto di Wikitesti.com la più grande enciclopedia musicale italiana, sul nostro sito oltre i testi delle canzoni potete trovare: traduzioni delle canzoni, accordi per chitarra, spartiti musicali e molto altro.

ACCORDI PER CHITARRA



Intro:
[B5]-[G]-[D]-[A] x6



[G] [D] [G] [D]
Algún tiempo atrás, pensé en escribirle
[G] [D] [G] [D] [A]
Y nunca sortié, las trampas del amor

VAMOS!

[B5] [G]-[D]-[A] [B5] [G]-[D]-[A]
De aquel amor, música ligera
[B5] [G]-[D]-[A] [B5] [G]-[D]-[A]
Nada nos libra, nada más queda

e|--------------------------------------||
B|--------------------------------------||
G|--------------------------------------||
D|-------0~-----0-----------------------||
A|-2-2-4------4---4-2-0----0h2-0--------||
E|---------------------0h2------0h2-0h2-||

e|---------------------------------------||
B|---------------------------------------||
G|---------------------------------------| Aqui hace un slide|
D|--------0~----2/4-2---------2/4--4/8/7-|-] del 4 al trate 8|
A|--2-2-4-------------4-2-0--------------| Pero enseguida lo vuelve al 7|
E|---------------------------------------| como un doble slide.|


[G]-[D] [G]-[D]
No le enviaré, cenizasrosas
[G]-[D] [G]-[D]-[A]
Ni pienso evitar, un roce secreto, ajá!


[B5] [G]-[D]-[A] [B5] [G]-[D]-[A]
De aquel amor, música ligera
[B5] [G]-[D]-[A] [B5] [G]-[D]-[A]
Nada nos libra, nada más queda

Uuuuh

e||--7--5---7--5---7--5/2--2--0---2--5p2p0-2/5--5/7-7-|
B||-0--0--0--0---0---0----0--0---0--0------0---0-------|
G||---------------------------------------------------|

e|-7/12-10-9-10-12-10-9-7-5--0-5p7p5-0---7p9p7-0---5p7p5-0---7p9p7-0-|
B|-------------------------------------------------------------------|
G|-------------------------------------------------------------------|


e|---14--12--14--12-14-15-14-12---12-14-15-14-12-10-9-10-12-10-9/2----|
B|--------------------------------------------------------------------|
G|--------------------------------------------------------------------|

e|---2-0-2-5p2p0-2/5-7p5p0---5/2-0-2-5p2p0--2/5-7p5p0--7-9p7p0-9-9p11p0-|
B|----------------------------------------------------------------------|
G|----------------------------------------------------------------------|

e|--10-12p10p0-14/0-------|||
B|------------------------|||
G|------------------------|||

[B5] [G]-[D]-[A] [B5] [G]-[D]-[A]
De aquel amor, música ligera
[B5] [G]-[D]-[A] [B5] [G]-[D]-[A]
Nada nos libra, nada más queda, nada más


Parte funky (son los mismos )
[B] [G] [D] [A]
e|-7---7---5---9----|||
B|-7---8---7---10---|||
G|-7---7---7---9----|||
D|------------------|| x2|
A|------------------|||
E|------------------|||


[B5] [G]-[D] [A] [B5]
nada más queda, nada mas queda

[A] [B5] [G]-[D] [A] [B5]
nada más queda, nada mas queda

[G]
Solo un deja vù,
a la gran fiestA del rock salud!

[G]-[D] ([D])

 

Ecco una serie di risorse utili per Soda Stereo in costante aggiornamento

Tutti i TESTI delle canzoni di Soda Stereo

Tutti gli ACCORDI PER CHITARRA delle canzoni di Soda Stereo