Hero Michael Kiwanuka – Accordi per chitarra

Hero – Michael Kiwanuka Testo e accordi per chitarra. Accordichitarra.me è un prodotto di Wikitesti.com la più grande enciclopedia musicale italiana, sul nostro sito oltre i testi delle canzoni potete trovare: traduzioni delle canzoni, accordi per chitarra, spartiti musicali e molto altro.

 

ACCORDI PER CHITARRA

Only 3 Chords are used throughout the song.
Mi- Re Do
e|----7-----5-----5----------|
B|----8-----7-----3----------|
G|----9-----7-----3----------|
D|----9-----7-----3----------|
A|----7-----5-----5----------|
E|---------------------------|


Intro
This same pattern plays through almost the entire song.
Mi- Mi- Re Re Re Re Do Do Re Re Re Re
After 2 times another guitar plays this riff that is also played several times in the song:
e|----------------------------------------------------------------------|
B|-/12--/12------8-10-8-----8-10--------/12--/12-----8-10-8----8--------|
G|-----------------------9----------------------------------9-----------| x2
D|----------------------------------------------------------------------|
A|----------------------------------------------------------------------|
E|----------------------------------------------------------------------|


Chorus
Mi- Re Do
Am I a hero?
Re Mi- Re Do Re
Am I a hero now?

Mi- Re Do
Am I a hero?
Re Mi- Re Do Re
Am I a hero now?
Yeah

Verse
Mi- Re Do
Please
don't shoot me down
Re Mi- Re Do Re
I love you like a brother
Mi- Re Do
It's on the news again
Re Mi- Re Do Do
I guess they killed another

Chorus
Mi- Re Do
Am I a hero?
Re Mi- Re Do Re
Am I a hero now?
Mi- Re Do
Am I a hero?
Re Mi- Re Do Re
Am I a hero now?

Break
This is the only part of the song that is different.

Do Mi- Re
Oh, we all get told to go alone
Do Mi- Re
Oh, we know it's hard for sure; We know
Re
We know

Chorus
Mi- Re Do
Am I a hero?
Re Mi- Re Do Re
Am I a hero now?
Mi- Re Do
To die a hero
Re Mi- Re Do Re
Is all that we know now

Solo
Mi- Re Do
Am I a hero?
Re Mi- Re Do Re
A fallen hero now?
Mi- Re Do
Hear my sin Lord
Re Mi- Re Do Re
So he ain't no hero now

Mi- Re Do
Am I a hero?
Re Mi- Re Do Re
My gun to reload now
Mi- Re Do
A broken people
Re Mi- Re Do Re
There go a hero now

 

ACCORDI PER CHITARRA

Only 3 Chords are used throughout the song.
Em D C
e|----7-----5-----5----------|
B|----8-----7-----3----------|
G|----9-----7-----3----------|
D|----9-----7-----3----------|
A|----7-----5-----5----------|
E|---------------------------|


[Intro]
This same pattern plays through almost the entire song.
Em Em D D D D C C D D D D

After 2 times another guitar plays this riff that is also played several times in the song:
e|----------------------------------------------------------------------|
B|-/12--/12------8-10-8-----8-10--------/12--/12-----8-10-8----8--------|
G|-----------------------9----------------------------------9-----------| x2
D|----------------------------------------------------------------------|
A|----------------------------------------------------------------------|
E|----------------------------------------------------------------------|


[Chorus]
Em D C
Am I a hero?
D Em D C D
Am I a hero now?

Em D C
Am I a hero?
D Em D C D
Am I a hero now?
Yeah

[Verse]
Em D C
Please…don't shoot me down
D Em D C D
I love you like a brother
Em D C
It's on the news again
D Em D C C
I guess they killed another

[Chorus]
Em D C
Am I a hero?
D Em D C D
Am I a hero now?
Em D C
Am I a hero?
D Em D C D
Am I a hero now?

[Break]
This is the only part of the song that is different.

C Em D
Oh, we all get told to go alone
C Em D
Oh, we know it's hard for sure; We know
D
We know

[Chorus]
Em D C
Am I a hero?
D Em D C D
Am I a hero now?
Em D C
To die a hero
D Em D C D
Is all that we know now

[Solo]
Em D C
Am I a hero?
D Em D C D
A fallen hero now?
Em D C
Hear my sin Lord
D Em D C D
So he ain't no hero now

Em D C
Am I a hero?
D Em D C D
My gun to reload now
Em D C
A broken people
D Em D C D
There go a hero now

TRADUZIONE IN ITALIANO 

Traduzione in Italiano

Sono un eroe?
Sono un eroe adesso?
Sono un eroe?
Sono un eroe adesso?
Sì, per

favore, non uccidermi,
ti ho amato come un fratello.
È di nuovo nelle notizie,
credo che abbiano ucciso un altro.

Sono un eroe?
Sono un eroe adesso?
Morire un eroe
È tutto ciò che sappiamo ora

Oh, a tutti ci viene detto di andare avanti
Oh, sappiamo che è tutto per lo spettacolo
Sappiamo, sappiamo

Sono un eroe?
Sono –> Continua su Testitradotti <–

https://open.spotify.com/album/2COBcimCnIN5cf6pog18jU?si=i5NF78UCROWxGNdUdTv2BQ

 

Ecco una serie di risorse utili per Michael Kiwanuka in costante aggiornamento

Tutti i TESTI delle canzoni di Michael Kiwanuka

Tutti gli ACCORDI PER CHITARRA delle canzoni di Michael Kiwanuka