Magmamemoria Levante – Accordi per chitarra

Magmamemoria – Levante Testo e accordi per chitarra. Accordichitarra.me è un prodotto di Wikitesti.com la più grande enciclopedia musicale italiana, sul nostro sito oltre i testi delle canzoni potete trovare: traduzioni delle canzoni, accordi per chitarra, spartiti musicali e molto altro.

ACCORDI PER CHITARRA

Mi- Re Do Mi- Re Do
e|----------|---------|--------------|----------|---------|--------------|
B|-----0----|---------|--------------|-----0----|---------|--------------|
G|----------|----0-0--|---0-0----0-0-|----------|----0-0--|---0-0----0-0-|
D|--5-7--5--|---4-4---|--2-2----2-2--|--5-7--5--|---4-4---|--2-2----2-2--|
A|-7--------|-5-------|-3------3-----|-7--------|-5-------|-3------3-----|
E|----------|---------|--------------|----------|---------|--------------|


Strofa 1 Intro
Come
Mi-
Non era vero
Re Do
Tu non muori mai, tu non muori mai

Sei dentro di me
Mi- Re
Come le vele spiegate dal vento
Do
Spiegami perché ti aggrappi al ventre?
Mi-
Non era vero
Re Do
Tu non muori mai, tu non muori mai

Sei dentro di me
Mi- Re
Navighi i mari della memoria
Do
Riporti a galla, il mio petto brucia
La- Do Sol Re- La- Do
Ancora, Ancora gettata in fondo a me
Sol Re- La- Do
Scardini le mie certezze
Sol Re-
Ora che ritorni che

fa - rà
e|---3---|---5---|
B|----5--|----7--|
G|--4--4-|--6--6-|
D|-0-----|-0-----|
A|-------|-------|
E|-------|-------|


Ritornello
La# Do Re- La-
Ti ricordi che giorni di vita ad aspettarmi?
La# Do Re-
Sei tu il passato che non è mai andato
La- Mi- Re Do Mi- Re Do
E mai mi lascerà ahh


Strofa 2
Mi-
Non era vero
Re Do
Tu non muori mai, tu non muori mai

Sei dentro di me
Mi- Re
Corri veloce come il presente
Do
Sei di domani, sei nel per sempre
Mi-
Non era vero
Re Do
Tu non muori mai, tu non muori mai

Sei dentro di me
Mi- Re
Cremisi agli occhi di giorni di gloria
Do La- Do
Ecco il tuo nome, ti chiamerai Magmamemoria
Sol Re- La- Do
Lava incandescente dentro me
Sol Re- La- Do
Lavi via le mie speranze
Sol Re-
Ora che mi avvolgi

che fa - rà
e|---3---|---5---|
B|----5--|----7--|
G|--4--4-|--6--6-|
D|-0-----|-0-----|
A|-------|-------|
E|-------|-------|


Ritornello
La# Do Re- La-
Ti ricordi che giorni di vita ad aspettarmi?
La# Do Re-
Sei tu il passato che non è mai andato
La- Mi- Re Do Mi- Re Do
E mai mi lascerà ahh

 

ACCORDI PER CHITARRA

Em D C Em D C
e|----------|---------|--------------|----------|---------|--------------|
B|-----0----|---------|--------------|-----0----|---------|--------------|
G|----------|----0-0--|---0-0----0-0-|----------|----0-0--|---0-0----0-0-|
D|--5-7--5--|---4-4---|--2-2----2-2--|--5-7--5--|---4-4---|--2-2----2-2--|
A|-7--------|-5-------|-3------3-----|-7--------|-5-------|-3------3-----|
E|----------|---------|--------------|----------|---------|--------------|


[Strofa 1] Come [Intro]
Em
Non era vero
D C
Tu non muori mai, tu non muori mai

Sei dentro di me
Em D
Come le vele spiegate dal vento
C
Spiegami perché ti aggrappi al ventre?
Em
Non era vero
D C
Tu non muori mai, tu non muori mai

Sei dentro di me
Em D
Navighi i mari della memoria
C
Riporti a galla, il mio petto brucia
Am C G Dm Am C
Ancora, Ancora gettata in fondo a me
G Dm Am C
Scardini le mie certezze
G Dm
Ora che ritorni che

fa - rà
e|---3---|---5---|
B|----5--|----7--|
G|--4--4-|--6--6-|
D|-0-----|-0-----|
A|-------|-------|
E|-------|-------|


[Ritornello]
Bb C Dm Am
Ti ricordi che giorni di vita ad aspettarmi?
Bb C Dm
Sei tu il passato che non è mai andato
Am Em D C Em D C
E mai mi lascerà ahh


[Strofa 2]
Em
Non era vero
D C
Tu non muori mai, tu non muori mai

Sei dentro di me
Em D
Corri veloce come il presente
C
Sei di domani, sei nel per sempre
Em
Non era vero
D C
Tu non muori mai, tu non muori mai

Sei dentro di me
Em D
Cremisi agli occhi di giorni di gloria
C Am C
Ecco il tuo nome, ti chiamerai Magmamemoria
G Dm Am C
Lava incandescente dentro me
G Dm Am C
Lavi via le mie speranze
G Dm
Ora che mi avvolgi

che fa - rà
e|---3---|---5---|
B|----5--|----7--|
G|--4--4-|--6--6-|
D|-0-----|-0-----|
A|-------|-------|
E|-------|-------|


[Ritornello]
Bb C Dm Am
Ti ricordi che giorni di vita ad aspettarmi?
Bb C Dm
Sei tu il passato che non è mai andato
Am Em D C Em D C
E mai mi lascerà ahh

Di questa canzone sono Disponibili anche:

Testo Originale

Ecco una serie di risorse utili per Levante in costante aggiornamento

Tutti i TESTI delle canzoni di Levante

Tutti gli ACCORDI PER CHITARRA delle canzoni di Levante