No hay nadie más Sebastian Yatra – Accordi per chitarra

No hay nadie más – Sebastian Yatra Testo e accordi per chitarra. Accordichitarra.me è un prodotto di Wikitesti.com la più grande enciclopedia musicale italiana, sul nostro sito oltre i testi delle canzoni potete trovare: traduzioni delle canzoni, accordi per chitarra, spartiti musicali e molto altro.

ACCORDI PER CHITARRA

   [F#]              [D#m]         [B]   [C#]  [F#]
e|-9-----|-9-----|-----------|-------------------------||
B|----11-|-----11|-6-7---6-7-|-2-----------------------||
G|-------|-------|-----------|---4-3-------------------||
D|-------|-------|-----------|---------3-4---3-4---3-4-||
A|-9---9-|-9---9-|-6-6---6-6-|-2-2-2---4-4---4-4---4-4-||
E|-------|-------|-----------|-------------------------||

[F#] [D#m]
Recuerdo aquel día, Como si fuera hoy
[B] [C#] [F#]
No hay nada como ella, Ni siquiera me encontró
e|-------|-------|-----|-----|-----|-----|-4h6h4---4-----------||
B|-11-11-|-11-11-|-7-7-|-7-7-|-4-4-|-6-6-|-----------7---6h7---||
G|-------|-------|-----|-----|-----|-----|-------------------6-||
D|-------|-------|-----|-----|-----|-----|-4---4---4-----------||
A|--9--9-|--9--9-|-6-6-|-6-6-|-2-2-|-4-4-|-----------4---4-4-4-||
E|-------|-------|-----|-----|-----|-----|---------------------||


[F#] [D#m]
Recuerdo todavía, La vez que la besé
[B] [C#] [F#]
Fue mi primer amor, Y ahora escribo su canción
e|-------|-------|-----|-----|-------|-----|-4h6h4---4-----------||
B|-11-11-|-11-11-|-7-7-|-7-7-|-2-4-4-|-6-6-|-----------7---6h7---||
G|-------|-------|-----|-----|-------|-----|-------------------6-||
D|-------|-------|-----|-----|-------|-----|-4---4---4-----------||
A|--9--9-|--9--9-|-6-6-|-6-6-|-2-2-2-|-4-4-|-----------4---4-4-4-||
E|-------|-------|-----|-----|-------|-----|---------------------||

[D#m] [B] [F#]
Hay algo más inexplicable como su mirada
[C#] [D#m] [B]
Inigualable como la manera en que me cela
[F#] [C#]
Y tratadisimular que no está mal


[F#] [C#]
Voy a cuidarte por las noches
[D#m] [B]
Voy a amarte sin reproches
[F#] [C#]
Te voy a extrañar en la tempestad
[D#m] [B]
Y aunque existan mil razones para renunciar
[F#] - [C#]
No hay nadie más
[D#m] - [B] - [F#]
No hay nadie más
[F#] [C#]
Se llevó todo, se llevó tristeza
[D#m]
Ya no existe espacio en la melancolía
[B]
Porque a su lado todo tiene más razón
e|-------|-----|-----|-----|-----||
B|-11-11-|-6-6-|-7-7-|-4-4-|-2---||
G|-------|-----|-----|-----|---4-||
D|-------|-----|-----|-----|-----||
A|--9--9-|-4-4-|-6-6-|-2-2-|-2-2-|
E|-------|-----|-----|-----|-----||

[F#] [C#]
Me llevé sus lágrimas, llegaron risas
[D#m]
Cuando estamos juntos la tierra se paraliza
[B]
Se paraliza
e|-------|-----|-----|-----|------|-----|-----||
B|-11-11-|-6-6-|-7---|-----|-9-11-|-4-4-|-2---||
G|-------|-----|-----|-----|------|-----|---4-||
D|-------|-----|-----|-----|------|-----|-----||
A|--9--9-|-4-4-|-6---|-----|-7--7-|-2-2-|-2-2-||
E|-------|-----|-----|-----|------|-----|-----||


[D#m] [B] [F#]
Hay algo más inexplicable como su mirada
[C#] [D#m] [B]
Inigualable como la manera en que me cela
[F#] [C#]
Y tratadisimular que no está mal


[F#] [C#]
Voy a cuidarte por las noches
[D#m] [B]
Voy a amarte sin reproches
[F#] [C#]
Te voy a extrañar en la tempestad
[D#m] [B]
Y aunque existan mil razones para renunciar


[F#] [C#]
Voy a cuidarte por las noches
[D#m] [B]
Voy a amarte sin reproches
[F#] [C#]
Te voy a extrañar en la soledad
[D#m] [B]
Y aunque existan mil razones para terminar

[F#] - [C#]
No hay nadie más
e|---------------------------||
B|-9h11h9---9----------------||
G|--------------11-10-11-----||
D|------------------------11-||
A|-9----9---9----9--9--9---9-||
E|---------------------------||
[D#m] - [B]
No hay nadie más
e|---------------------------||
B|-9h11h9---9----------------||
G|--------------11-10-11-----||
D|------------------------11-||
A|-9----9---9----9--9--9---9-||
E|---------------------------||
[F#] - [C#]
No quiero a nadie más, oh oh
e|---------------------------||
B|-9h11h9---9----------------||
G|--------------11-10-11-----||
D|------------------------11-||
A|-9----9---9----9--9--9---9-||
E|---------------------------||
[D#m] - [B]
No hay nadie más
e|---------------------------||
B|-9h11h9---9----------------||
G|--------------11-10-11-----||
D|------------------------11-||
A|-9----9---9----9--9--9---9-||
E|---------------------------||



[F#]
No hay nadie
e|-2-|
B|-2-|
G|-3-|
D|-4-|
A|-4-|
E|-2-|

 

Ecco una serie di risorse utili per Sebastian Yatra in costante aggiornamento

Tutti i TESTI delle canzoni di Sebastian Yatra

Tutti gli ACCORDI PER CHITARRA delle canzoni di Sebastian Yatra