Non avere paura Tommaso Paradiso – Accordi per chitarra

Non avere paura – Tommaso Paradiso Testo e accordi per chitarra. Accordichitarra.me è un prodotto di Wikitesti.com la più grande enciclopedia musicale italiana, sul nostro sito oltre i testi delle canzoni potete trovare: traduzioni delle canzoni, accordi per chitarra, spartiti musicali e molto altro.

ACCORDI PER CHITARRA

Intro Tab
CAPO 7th fret
Fa Re-7
e|-----1-----0-------1-----0-------1-----0-------3-----0--1-|
B|---1-----1-------1-----1-------1-----1-------1-----1------|
A|-2-----2-------2-----2-------2-----2-------2-----2--------|
D|-3-------------3-------------0-------------0--------------|
A|----------------------------------------------------------|
E|----------------------------------------------------------|
La# Do Fa
e|---------------------------------1-----0-------1-----0-|
B|-----6-----5-------6-----5-----1-----1-------1-----1---|
A|---3-----3-------5-----5-----2-----2-------2-----2-----|
D|-3-----3-------5-----5-------3-------------3-----------|
A|-1-------------3---------------------------------------|
E|-------------------------------------------------------|



NO CAPO

Cmaj9/B x20010

Intro
| Do | La- | Fa Sol | Do |


Verse 1
Do
Se mi guardi così, se mi sfiori così
La-
Se avvicini la tua bocca al mio orecchio ohoh
Fa Sol
Non finirà bene, ma ti prego, no
Do
Non smettere, non smettere mai
Do
La notte è benzina, la notte incatena
La-
La notte è questa faccia allo specchio ohoh
Fa Sol
E ora cade giù, pure una lacrima
Do Do-aj9/Si La-
Nel frattempo sto ridendo, oh oh oh

Pre-Chorus
Fa
Sento una musica ogni volta che ti sto accanto
Do
Quando ti perdo, poi ci ripenso
Sol
Come se fosse la fine del mondo

Dohorus
Do
No, non avere paura
La-
Quando vai a dormire sola
Se la stanza è sempre vuota
Fa
E se senti il cuore in gola
Non avere paura
Sol
Mi prenderò cura io di te oh oh oh oh

Verse 2
Do
Se ti abbraccio così, se ti stringo così
La-
Se appoggi la tua testa al mio petto oh oh
Fa Sol
No foto, no, no
Do
No tutto, no, no
Ci siamo solo noi, ci siamo solo

Pre-Chorus
La- Fa
Sento una musica ogni volta che ti sto accanto
Do
Quando ti perdo, poi ci ripenso
Sol
Come se fosse la fine del mondo

Dohorus
Do
No, non avere paura
La-
Quando vai a dormire sola
Se la stanza è sempre vuota
Fa
E se senti il cuore in gola
Non avere paura
Sol
Mi prenderò cura io di te oh oh oh oh
Do
No, non avere paura
La-
Quando a un tratto si fa buio
E la luna non è accesa
Fa
E vorresti una parola
Ma è solo un rossetto
Sol
Mi prenderò cura io di te

Siridge
Do
No, no, no, no, no, no
La-
No, no, no, no, no, no
Fa
No, no, no, no, no, no
Sol
No, no, no, no, no, no

Dohorus
Do
No, non avere paura
La-
Quando a un tratto si fa buio
E la luna non è accesa
Fa
E vorresti una parola
Ma è solo un rossetto
Sol
Mi prenderò cura io di te

Outro
Do
No, no, no, no, no, no
La-
Non avere pauraaa ah ah ah
Non avere paura
Fa
Quando vai a dormire sola
Non avere paura
Sol
Vorresti una parola
Vorresti una parola
Do La- Fa
Non avere paura
Sol Do
Mi prenderò cura io di te

 

ACCORDI PER CHITARRA

F Dm7
e|-----1-----0-------1-----0-------1-----0-------3-----0--1-|
B|---1-----1-------1-----1-------1-----1-------1-----1------|
A|-2-----2-------2-----2-------2-----2-------2-----2--------|
D|-3-------------3-------------0-------------0--------------|
A|----------------------------------------------------------|
E|----------------------------------------------------------|
Bb C F
e|---------------------------------1-----0-------1-----0-|
B|-----6-----5-------6-----5-----1-----1-------1-----1---|
A|---3-----3-------5-----5-----2-----2-------2-----2-----|
D|-3-----3-------5-----5-------3-------------3-----------|
A|-1-------------3---------------------------------------|
E|-------------------------------------------------------|



NO CAPO

Cmaj9/B x20010

Intro
| C | Am | F G | C |

Verse 1
C
Se mi guardi così, se mi sfiori così
Am
Se avvicini la tua bocca al mio orecchio ohoh
F G
Non finirà bene, ma ti prego, no
C
Non smettere, non smettere mai
C
La notte è benzina, la notte incatena
Am
La notte è questa faccia allo specchio ohoh
F G
E ora cade giù, pure una lacrima
C Cmaj9/B Am
Nel frattempo sto ridendo, oh oh oh

Pre-Chorus
F
Sento una musica ogni volta che ti sto accanto
C
Quando ti perdo, poi ci ripenso
G
Come se fosse la fine del mondo

Chorus
C
No, non avere paura
Am
Quando vai a dormire sola
Se la stanza è sempre vuota
F
E se senti il cuore in gola
Non avere paura
G
Mi prenderò cura io di te oh oh oh oh

Verse 2
C
Se ti abbraccio così, se ti stringo così
Am
Se appoggi la tua testa al mio petto oh oh
F G
No foto, no, no
C
No tutto, no, no
Ci siamo solo noi, ci siamo solo

Pre-Chorus
Am F
Sento una musica ogni volta che ti sto accanto
C
Quando ti perdo, poi ci ripenso
G
Come se fosse la fine del mondo

Chorus
C
No, non avere paura
Am
Quando vai a dormire sola
Se la stanza è sempre vuota
F
E se senti il cuore in gola
Non avere paura
G
Mi prenderò cura io di te oh oh oh oh
C
No, non avere paura
Am
Quando a un tratto si fa buio
E la luna non è accesa
F
E vorresti una parola
Ma è solo un rossetto
G
Mi prenderò cura io di te

Bridge
C
No, no, no, no, no, no
Am
No, no, no, no, no, no
F
No, no, no, no, no, no
G
No, no, no, no, no, no

Chorus
C
No, non avere paura
Am
Quando a un tratto si fa buio
E la luna non è accesa
F
E vorresti una parola
Ma è solo un rossetto
G
Mi prenderò cura io di te

Outro
C
No, no, no, no, no, no
Am
Non avere pauraaa ah ah ah
Non avere paura
F
Quando vai a dormire sola
Non avere paura
G
Vorresti una parola
Vorresti una parola
C Am F
Non avere paura
G C
Mi prenderò cura io di te
https://open.spotify.com/track/1qMx707PFdFXdwLvcUTNz3?si=I5lCRk8NQTSIvCtW658OGA

Di questa canzone sono Disponibili anche:

Testo Originale

Ecco una serie di risorse utili per Tommaso Paradiso in costante aggiornamento

Tutti i TESTI delle canzoni di Tommaso Paradiso

Tutti gli ACCORDI PER CHITARRA delle canzoni di Tommaso Paradiso