Qualcuno Che È Andato Generic Animal – Accordi per chitarra

Qualcuno Che È Andato – Generic Animal Testo e accordi per chitarra. Accordichitarra.me è un prodotto di Wikitesti.com la più grande enciclopedia musicale italiana, sul nostro sito oltre i testi delle canzoni potete trovare: traduzioni delle canzoni, accordi per chitarra, spartiti musicali e molto altro.

ACCORDI PER CHITARRA

[Verse 1]

e|---------------------------------------------------------------------------|
B|---------------------------------------------------------------------------|
G|---0---0---0---0-----------------------------------------------------------|
D|---2---2---0---0-----------------------------------------------------------|
A|--2---2---2---2------------------------------------------------------------|
E|-3---3---0---3-------------------------------------------------------------|

[Verse 2]

e|---------------------------------------------------------------------------|
B|---------------------------------------------------------------------------|
G|-0-2h4p2p0-----0-0---------------------------------------------------------|
D|-2---------2p0-0-0---------------------------------------------------------|
A|-3-------------2-2---------------------------------------------------------|
E|-3-------------0-3---------------------------------------------------------|

 

ACCORDI PER CHITARRA

[Verse 1]

e|---------------------------------------------------------------------------|
B|---------------------------------------------------------------------------|
G|---0---0---0---0-----------------------------------------------------------|
D|---2---2---0---0-----------------------------------------------------------|
A|--2---2---2---2------------------------------------------------------------|
E|-3---3---0---3-------------------------------------------------------------|

[Verse 2]

e|---------------------------------------------------------------------------|
B|---------------------------------------------------------------------------|
G|-0-2h4p2p0-----0-0---------------------------------------------------------|
D|-2---------2p0-0-0---------------------------------------------------------|
A|-3-------------2-2---------------------------------------------------------|
E|-3-------------0-3---------------------------------------------------------|

Di questa canzone sono Disponibili anche:

Testo Originale

Ecco una serie di risorse utili per Generic Animal in costante aggiornamento

Tutti i TESTI delle canzoni di Generic Animal

Tutti gli ACCORDI PER CHITARRA delle canzoni di Generic Animal